6/10

DIFFICULTY

STANDARD TUNING

CAPO ON 3RD FRET

Guitar Chord & Songwriting Cheat Sheet

GUITARZERO2HERO FREEBIE:

CHORD & SONGWRITING CHEAT SHEET

MASTER OVER 200+ CHORDS & MORE

CHORD SHAPES

To celebrate the return of season 6 of Game of Thrones, this video is a detailed step-by-step lesson tutorial on how to play the Boyce Avenue Rendition of the Game Of Thrones Theme Song!

This tutorial will break down both the lead guitar and rhythm guitar of the Boyce Avenue version of the Game Of Thrones theme song. If you’d like to jam along to this song, then be sure to get the Guitar Rhythm Backing Track mp3 sent to your email address below. You’ll find 2 versions – one with a click and one without!

Enjoy! Like the video and subscribe to the channel for more videos in the future!

https://tabs.ultimate-guitar.com/b/boyce_avenue/game_of_thrones_main_theme_ver3_tab.htm

GAME OF THRONES RHYTHM BACKING TRACK - WITH CLICK
Jam along to the Game Of Thrones Theme Song - click below to have the mp3 sent to your email!

GAME OF THRONES RHYTHM BACKING TRACK - NO CLICK
Jam along to the Game Of Thrones Theme Song - click below to have the mp3 sent to your email!

-------------------------
    CAPO ON 3RD FRET
-------------------------


[Rhythm - Intro]
   Am                          A
e|-0-----------|-------------|-0-----------|-------------|
B|-1-----------|-------------|-2-----------|-------------|
G|-2-----------|-------------|-2-----------|-------------|
D|-2-----------|-------------|-2-----------|-------------|
A|-0-0-0-0-0-0-|-0-0-0-0-0-0-|-0-0-0-0-0-0-|-0-0-0-0-0-0-|
E|-------------|-------------|-------------|-------------|


[Rhythm - Verse 1]
   Am                          Em                          
e|-------------|-------------|-------------|-------------|
B|-------1-----|-------1-----|-------0-----|-------0-----|
G|-----2-------|-----2-------|-----0-------|-----0-------|
D|---2---------|---2---------|---2---------|---2---------|
A|-0-----------|-0-----------|-------------|-------------|
E|-------------|-------------|-0-----------|-0-----------|

   G                           Dm
e|-------------|-------------|-------1-----|-------1-----|
B|-------3-----|-------3-----|-----3-------|-----3-------|
G|-----0-------|-----0-------|---2---------|---2---------|
D|---0---------|---0---------|-0-----------|-0-----------|
A|-------------|-------------|-------------|-------------|
E|-3-----------|-3-----------|-------------|-------------|

   Am                          Em                          
e|-------------|-------------|-------------|-------------|
B|-------1-----|-------1-----|-------0-----|-------0-----|
G|-----2---2---|-----2---2---|-----0---0---|-----0---0---|
D|---2-------2-|---2-------2-|---2-------2-|---2-------2-|
A|-0-----0-----|-0-----0-----|-------------|-------------|
E|-------------|-------------|-0-----0-----|-0-----0-----|
shre
   G                           Am
e|-------------|-------------|-------------|-------------|
B|-------3-----|-------3-----|-------1-----|-------1-----|
G|-----0---0---|-----0---0---|-----2---2---|-----2---2---|
D|---0-------0-|---0-------0-|---2-------2-|---2-------2-|
A|-------------|-------------|-0-----0-----|-0-----0-----|
E|-3-----3-----|-3-----3-----|-------------|-------------|


[Rhythm - Chorus 1]
   F             C             Dm            Am          
e|-------------|-------0-----|-------1-----|-------------|
B|-------1-----|-----1---1---|-----3---3---|-------1-----|
G|-----2---2---|---0-------0-|---2-------2-|-----2---2---|
D|---3-------3-|-------------|-0-----0-----|---2-------2-|
A|-------------|-3-----3-----|-------------|-0-----0-----|
E|-1-----1-----|-------------|-------------|-------------|

   F             Am/D  Em      Am
e|-------------|-------------|-------------|-------------|
b|-------1-----|-----1-----0-|-------1-----|-------1-----|
G|-----2---2---|---2-----0---|-----2---2---|-----2---2---|
D|---3-------3-|-0-----------|---2-------2-|---2-------2-|
A|-------------|-------------|-0-----0-----|-0-----0-----|
E|-1-----1-----|-------0-----|-------------|-------------|

   F             C             Dm            Am           
e|-------------|-------0-----|-------1-----|-------------|
B|-------1-----|-----1---1---|-----3---3---|-------1-----|
G|-----2---2---|---0-------0-|---2-------2-|-----2---2---|
D|---3-------3-|-------------|-0-----0-----|---2-------2-|
A|-------------|-3-----3-----|-------------|-0-----0-----|
E|-1-----1-----|-------------|-------------|-------------|

   F             Am/D  Em      Am
e|-------------|-------------|-------------|-------------|
B|-------1-----|-----1-----0-|-------1-----|-------------|
G|-----2---2---|---2-----0---|-----2---2---|-------------|
D|---3-------3-|-0-----------|---2-------2-|-------------|
A|-------------|-------------|-0-----0-----|-0-----------|
E|-1-----1-----|-------0-----|-------------|-------------|

[Rhythm - Verse 2]
Am Em G Am

[Rhythm - Chorus 2] x2
F C Dm Am
F Am/D Em Am




[Lead - Intro]
   Am              A
e|-0-------|     |-0-------|
B|-----1h3-|     |-----2h3-|
G|---2-----|     |---2-----|
D|---------| x4  |---------| x4
A|---------|     |---------|
E|---------|     |---------|

[Lead - Verse 1]
   Am                             Em                      
e|-0-----------|-----0----------|----------|-------------|
B|-------------|-1h3--------1h3-|-0--------|-------------|
G|-------2-----|--------2-------|----------|-------------|
D|-------------|----------------|----------|-------------|
A|-------------|----------------|----------|-------------|
E|-------------|----------------|----------|-------------|

   G                             Dm
e|-------------|---------------|-----------|-------------|
B|-3-----------|-1p0-3-----1p0-|-----------|-------0h1-3-|
G|-------0-----|--------0------|-2---------|----0h2------|
D|-------------|---------------|-----------|-------------|
A|-------------|---------------|-----------|-------------|
E|-------------|---------------|-----------|-------------|

   Am                             Em                       
e|-0-----------|-----0----------|----------|-------------|
B|-------------|-1h3--------1h3-|-0--------|-------------|
G|-------2-----|--------2-------|----------|-------------|
D|-------------|----------------|----------|-------------|
A|-------------|----------------|----------|-------------|
E|-------------|----------------|----------|-------------|

   G                             Dm
e|-------------|---------------|-----------|-------------|
B|-3-----------|---------------|-----------|-------------|
G|-------0-----|-4--5-4h5p4--0-|-0h2-------|-------------|
D|-------------|---------------|-----------|-------------|
A|-------------|---------------|-----------|-------------|
E|-------------|---------------|-----------|-------------|


[Lead - Chorus 1]
               F             C             Dm            Am            
e|-----------|-------------|-------------|-------------|-------------|
B|---------8-|-10----------|-8-----------|-6-----------|-------------|
G|-----7-9---|-------------|-------------|----------7--|-9-----------|
D|-----------|-------10----|-------------|-------7-----|-------------|
A|-----------|-------------|-------------|-------------|-------------|
E|-----------|-------------|-------------|-------------|-------------|

   F             Am/D  Em      Am
e|-------------|-------------|------------|--|
B|-1-----------|-1-----3-----|-5----------|--|
G|-------------|-------------|------------|--|
D|-------3-----|-------------|------------|--|
A|-------------|-------------|------------|--|
E|-------------|-------------|------------|--|

               F             C             Dm            Am             
e|-----------|-------------|-------------|-------------|---------------|
B|---------8-|-10------8\6-|-6h8---------|-6-------5-6-|-5h6p5---1-3-5-|
G|----9-10---|-------------|-------------|-------7-----|---------------|
D|-----------|-------10----|-------------|-----7-------|---------------|
A|-----------|-------------|-------------|-------------|---------------|
E|-----------|-------------|-------------|-------------|---------------|

   F             Am/D  Em       Am
e|-------------|--------------|---------|--|
B|-------------|--------------|---------|--|
G|-5-----------|-5-----4----2-|-2-------|--|
D|------3------|--------------|---------|--|
A|-------------|--------------|---------|--|
E|-------------|--------------|---------|--|


[Lead - Verse 2]

                 Am                          Em                          
e|-------------|-0-----------|-0-----------|---------------|------------|
B|---------1-3-|---------1h3-|---------1h3-|-0------0------|-0------0---|
G|-----2-4-----|------2------|-----2-------|----0h2----0h2-|----0h2-----|
D|-2-5---------|-------------|-------------|---------------|------------|
A|-------------|-------------|-------------|---------------|------------|
E|-------------|-------------|-------------|---------------|------------|

   G                            Am
e|-------------|--------------|--------|--|
B|-3-----------|--------------|--------|--|
G|-------0-----|-4-5-4h5p4--0-|-0h2----|--|
D|-------------|--------------|--------|--|
A|-------------|--------------|--------|--|
E|-------------|--------------|--------|--|


[Lead - Chorus 2]

                  F             C             Dm            Am              
e|--------------|-------------|-------------|-------------|---------------|
B|------------8-|-10------8\6-|-6h8---------|-6-------5-6-|-5h6p5---1-3-5-|
G|--------7-9---|-------------|-------5-----|------7------|---------------|
D|-7-9-10-------|-----10------|-------------|----7--------|---------------|
A|--------------|-------------|-------------|-------------|---------------|
E|--------------|-------------|-------------|-------------|---------------|

   F           Am/D Em     Am
e|-----------|-----------|-----------|--|
B|-----------|-1----3----|-5---------|--|
G|-5---------|-----------|-----------|--|
D|------3----|-----------|-----------|--|
A|-----------|-----------|-----------|--|
E|-----------|-----------|-----------|--|

                 F             C          Dm            Am              
e|-8-7-5-------|-------------|----------|-------------|---------------|
B|-------8-5-8-|-8/10----8\6-|-6h8------|-6-------5-6-|-5h6p5---1-3-5-|
G|-------------|-------------|------5---|------7------|---------------|
D|-------------|------10-----|----------|----7--------|---------------|
A|-------------|-------------|----------|-------------|---------------|
E|-------------|-------------|----------|-------------|---------------|

   F       Am/D Em       Am
e|-------|---------|---------------|---------------|
B|-------|---------|---------------|---------------|
G|-5-----|-5----4--|-2------2------|-2------2------|
D|----3--|---------|--2-3h5--2-3h5-|--2-3h5--2-3h5-|
A|-------|---------|---------------|---------------|
E|-------|---------|---------------|---------------|


[Lead - Outro]
e|-5------5------5------5---|
B|--5-6h8--5-6h8--5-6h8-----|
G|--------------------------|
D|--------------------------|
A|--------------------------|
E|--------------------------|